Outright - To The Straight (Guitar Tab)

Song title   : To The Straight
Artist       : Outright
Tabbed by    : yoos (yoosyoes.blogspot.com)


Fig1
e|---------------------------------------------------------------------------|
B|---------------------------------------------------------------------------|
G|---------------------------------------------------------------------------|
D|---------------------------------------------------------------------------|
A|--8-7-5--5-5---8-7-5--5-5---8-7-5--5-5---8-7-5--8-7-5----------------------|
E|---------------------------------------------------------------------------|

Fig2
e|---------------------------------------------------------------------------|
B|---------------------------------------------------------------------------|
G|---------------------------------------------------------------------------|
D|--------7---7-7-7-7-7-7-7-7-7---7-7-7-7---------10--10-10-10-10-10-10-10---|
A|--8--7--5---5-5-5-5-5-5-5-5-5---5-5-5-5-8-8-7-7-8---8--8--8--8--8--8--8----|
E|---------------------------------------------------------------------------|

e|---------------------------------------------------------------------------|
B|---------------------------------------------------------------------------|
G|---------------------------------------------------------------------------|
D|--8-8-8-8----------7---7-7-7-7-7-7-7-7---7-7-7-7---------10--10-10-10-10---|
A|--6-6-6-6-8-8-7-7--5---5-5-5-5-5-5-5-5---5-5-5-5-8-8-7-7-8---8--8--8--8----|
E|---------------------------------------------------------------------------|

e|---------------------------------------------------------------------------|
B|---------------------------------------------------------------------------|
G|---------------------------------------------------------------------------|
D|--10-10-10-10-8-8-8-8------------------------------------------------------|
A|--8--8--8--8--6-6-6-6------------------------------------------------------|
E|---------------------------------------------------------------------------|

Fig3
e|---------------------------------------------------------------------------|
B|---------------------------------------------------------------------------|
G|---------------------------------------------------------------------------|
D|--------5--7-7------------7-7------------7-7------------7-7-------5--------|
A|--8--7-----5-5---8-7-5-8--5-5---8-7-5-8--5-5---8-7-5-8--5-5---8-7----------|
E|---------------------------------------------------------------------------|

Fig4
e|---------------------------------------------------------------------------|
B|---------------------------------------------------------------------------|
G|---------------------------------------------------------------------------|
D|--3p0-3p0---3p0-3p0-5b7-0--------------------------------------------------|
A|---------------------------------------------------------------------------|
E|---------------------------------------------------------------------------|

Fig5
e|---------------------------------------------------------------------------|
B|---------------------------------------------------------------------------|
G|---------------------------------------------------------------------------|
D|--------7----------------5-5-----------7---------------5-5-----------------|
A|--8--5--5----5-5-8-8-5-5-----5-5-8-8-5-5---5-5-8-8-5-5---------------------|
E|---------------------------------------------------------------------------|


RISE…!

Fig1

Fig2
ARE WE STILL STAY LOOK OUR STUPID?
ARE WE STILL STAY LOOK OUR WEAK?
ARE WE STILL STAY LOOK OUR DESTINY?
NEVER DO SOMETHING
UNTIL THE END

Fig3
NOW…
CHANGE YOUR WAY
CHANGE YOUR LIFE
TO THE STRAIGHT

Fig2
START RIGHT NOW
REPAIR ALL BROKEN
CHANGE RIGHT NOW
CHANGE TO BE GOOD
DON’T LET IT
KILLING YOUR DREAM
AND READY FOR
REVOLUTION TODAY

Fig3
NOW…
CHANGE YOUR LIFE
CHANGE YOUR WAY
TO THE STRAIGHT

Fig4
TO THE STRAIGHT
TO THE STRAIGHT

Fig5
I WANT TO CHANGE MY LIFE TO THE STRAIGHT
TO THE STRAIGHT


Related Posts



0 comments:

Post a Comment