Last Child Feat Giselle - Seluruh Nafas Ini (Guitar Tab)

Song title   : Seluruh Nafas Ini
Artist       : Last Child Feat Giselle
Tabbed by    : yoos (yoosyoes.blogspot.com)


Fig1
e|--------0---1---1h3---1h3p1-0-----------0----------------------------------|
B|------1-----------------------1-------3---3---3-3/5---5-6-5-3--------------|
G|----0---------0---------------------0-------0-----------------5------------|
D|--2-------------------------------0----------------------------------------|
A|--3------------------------------------------------------------------------|
E|--------------------------------3------------------------------------------|

e|----------------------------7---5--5---x-3---------------------------------|
B|------------------------5-------6--6---x-1---------------------------------|
G|--------5-------5---------------5--5---x-2---------------------------------|
D|------7-----7-------7--------------------3---------------------------------|
A|----7---------7-------7----------------------------------------------------|
E|--5------------------------------------------------------------------------|

FigA
e|---------------------------------------------------------------------------|
B|--------1-------1-------1-------1------------------------------------------|
G|------2-----2-------2-------2----------------------------------------------|
D|----2---------2-------2-------2--------------------------------------------|
A|--0------------------------------------------------------------------------|
E|---------------------------------------------------------------------------|

FigF
e|---------------------------------------------------------------------------|
B|--------1-------1-------1-------1------------------------------------------|
G|------2-----2-------2-------2----------------------------------------------|
D|----3---------3-------3-------3--------------------------------------------|
A|---------------------------------------------------------------------------|
E|--1------------------------------------------------------------------------|

FigC
e|---------------------------------------------------------------------------|
B|--------1-------1-------1-------1------------------------------------------|
G|------0-----0-------0-------0----------------------------------------------|
D|----2---------2-------2-------2--------------------------------------------|
A|--3------------------------------------------------------------------------|
E|---------------------------------------------------------------------------|

FigG
e|---------------------------------------------------------------------------|
B|--------0-------0-------0-------0------------------------------------------|
G|------0-----0-------0-------0----------------------------------------------|
D|----0---------0-------0-------0--------------------------------------------|
A|---------------------------------------------------------------------------|
E|--3------------------------------------------------------------------------|



C G Am F 

     Am                  F 
Lihatlah luka ini yang sakitnya abadi 
        C                       G 
Yang terbalut hangatnya bekas pelukmu 
    Am                 F 
Aku tak akan lupa tak akan pernah bisa 
        C                     G 
Tentang apa yang harus memisahkan kita 

        Em      F          C      G
Di saat ku tertatih tanpa kau disini 
       Em       F          G 
Kau tetap ku nanti demi keyakinan ini 

       F                       C 
Jika memang dirimulah tulang rusukku 
         F                    Am 
Kau akan kembali pada tubuh ini 
        F                    C 
Ku akan tua dan mati dalam pelukmu 
     Am     G         F  C 
Untukmu seluruh nafas ini 

     Am                 F 
Kita telah lewati rasa yang pernah mati 
      C                        G 
Bukan hal baru bila kau tinggalkan aku 
      Am                 F 
Tanpa kita mencari jalan untuk kembali 
       C                        G 
Takdir cinta yang menuntunmu kembali padaku 

        Em      F          C      G 
Di saat ku tertatih tanpa kau disini 
       Em       F          G 
Kau tetap ku nanti demi keyakinan ini 

       F                          C 
Jika memang kau terlahir hanya untukku 
        F                     Am 
Bawalah hatiku dan lekas kembali 
        F                          C 
Ku nikmati rindu yang datang membunuhku 
     Am     G         F 
Untukmu seluruh nafas ini 

        Dm   
Dan ini yang terakhir (aku menyakitimu) 
    F 
Ini yang terakhir (aku meninggalkanmu hooo..) 
        Am        G         F 
Tak kan ku sia-siakan hidupmu lagi 
     Dm                    F 
Ini yang terakhir, dan ini yang terakhir 
        Am       G         F       G C 
Tak kan ku sia-siakan hidupmu lagi 


       F                       C 
Jika memang dirimulah tulang rusukku 
         F                    Am 
Kau akan kembali pada tubuh ini 
        F                    C 
Ku akan tua dan mati dalam pelukmu 
     Am     G         F   
Untukmu seluruh nafas ini 

       F                       C 
Jika memang dirimulah tulang rusukku 
         F                    Am 
Kau akan kembali pada tubuh ini 
        F                    C 
Ku akan tua dan mati dalam pelukmu 
     Am     G         F   
Untukmu seluruh nafas ini 
     Am     G         F   
Untukmu seluruh nafas ini 

     Dm     F         C 
Untukmu seluruh nafas ini


Related Posts



10 comments:

Anonymous said...

wah kebetulan neh tdi habis dengerin mp3 lagunya seluruh nafas ini..mau nyari tabnya eh malah disini udah ada..hehehe
gag perlu repot" dengerin deh..thanks .. ijin ngeprint out ya.:D

salam kenal .. baru pertama berkunjung di blog ini

Anonymous said...

maksudnya fig1 figG apaan gan?

Yoos Yoes said...

Liat di tab di atasnya bro
Itu petikan classic nya

Astri lia said...

itu standard tuning?

Lai Chong Wei said...

FigA figC figG itu chord dasar untuk petikan nya,jadi pas metik..finger kita standby chord tsb..

Lai Chong Wei said...

FigA figC figG itu chord dasar untuk petikan nya,jadi pas metik..finger kita standby chord tsb..

Gratis MP3 said...

Thanks, kebetulan lagi yati chord lagu ini :)

Adhietya Ramadhan said...

salah oeyy aslinya tuh open C bukan tuning standar E, asli nya liat di youtube dehh ..

Nathansyah said...

Jadinya itu standart tuning atau bukan?

Nathansyah said...
This comment has been removed by the author.

Post a Comment