Nosstress feat Sandrayati Fay - Kita (Guitar Tab & Chord)

Song title   : Kita
Artist       : Nosstress feat Sandrayati Fay
Tabbed by    : yoos (yoosyoes.blogspot.com)

$Ihsan


Fig1
e|--------------------------------------------------------------------------|
B|--10--------9-------------------------------------------------------------|
G|-----10-------9---6-------------------------------------------------------|
D|--------10------9---------------------------------------------------------|
A|--8---------7-----5-------------------------------------------------------|
E|--------------------------------------------------------------------------|

Fig2
e|------0-0-0-0-0-------0-0-0-0-0-------------------------------------------|
B|------2-2-2-2-2-------3-3-3-3-3-------------------------------------------|
G|------2-2-2-2-2-------2-2-2-2-2-------------------------------------------|
D|------2-2-2-2-2---0---------------2h4-2-----------------------------------|
A|--0-----------------------------------------------------------------------|
E|--------------------------------------------------------------------------|

FigD      FigE
e|--0--|  e|--0--|
B|--3--|  B|--0--|
G|--2--|  G|--4--|
D|--0--|  D|--2--|
A|-----|  A|-----|
E|-----|  E|-----|

Fig3
e|--------2-----------------------------------------------------------------|
B|------0---0---0-----------------------------------------------------------|
G|------------3-------------------------------------------------------------|
D|--2h4---------------------------------------------------------------------|
A|--------------------------------------------------------------------------|
E|--------------------------------------------------------------------------|

Fig4
e|-------------------------------12p9---------------------------------------|
B|----------------9h10---10p9---------10------------------------------------|
G|-----------9h11-------------11--------------------------------------------|
D|------9h11----------------------------------------------------------------|
A|--7h9---------------------------------------------------------------------|
E|--------------------------------------------------------------------------|

e|--------------------------------------------------------------------------|
B|----------------9h10---10p9----10p9---------------------------------------|
G|-----------9h11-------------11------11------------------------------------|
D|------9h11----------------------------------------------------------------|
A|--7h9---------------------------------------------------------------------|
E|--------------------------------------------------------------------------|

Fig5
e|----9---------------------------------------------------------------------|
B|---9----------------------------------------------------------------------|
G|--9-----------------------------------------------------------------------|
D|--------------------------------------------------------------------------|
A|--------------------------------------------------------------------------|
E|--------------------------------------------------------------------------|

Fig6
e|--------12----------------------------------------------------------------|
B|-----9--------------------------------------------------------------------|
G|--9-----------------------------------------------------------------------|
D|--------------------------------------------------------------------------|
A|--------------------------------------------------------------------------|
E|--------------------------------------------------------------------------|

Fig7
e|---------------------------------------------------------------12p9-------|
B|---------9------------9-----9---------------9------------9----------9-----|
G|-------9-----9------9-----9---9-----------9-----9------9-----9------------|
D|--9h11---------9h11-------------11---9h11---------9h11--------------------|
A|--------------------------------------------------------------------------|
E|--------------------------------------------------------------------------|

e|--------------------------------------------------------------------------|
B|---------9------------9-----9---------------9------------9-----9----------|
G|-------9-----9------9-----9---9-----------9-----9------9-----9---9--------|
D|--9h11---------9h11-------------11---9h11---------9h11-------------11-----|
A|--------------------------------------------------------------------------|
E|--------------------------------------------------------------------------|

e|--------12-------12-------12-------12-------12----------------------------|
B|-----------14-------14-------14-------14-------14-------------------------|
G|-----14-------14-------14-------14-------14-------14----------------------|
D|--14----------------------------------------------------------------------|
A|--------------------------------------------------------------------------|
E|--------------------------------------------------------------------------|

e|--------10-------10-------10-------10-------10----------------------------|
B|-----10----10-------10-------10-------11-------11-------------------------|
G|--11----------11-------11-------11-------11-------11----------------------|
D|--------------------------------------------------------------------------|
A|--------------------------------------------------------------------------|
E|--------------------------------------------------------------------------|

e|--------------------------------------------------------------------------|
B|---------9------------9-----9---------------9------------9-----9----------|
G|-------9-----9------9-----9---9-----------9-----9------9-----9---9--------|
D|--9h11---------9h11-------------11---9h11---------9h11-------------11-----|
A|--------------------------------------------------------------------------|
E|--------------------------------------------------------------------------|

Fig8
e|--------------------------------------------------------------------------|
B|--------------------------------------------------------------------------|
G|--------------------------------------------------------------------------|
D|--------------------------------------------------------------------------|
A|----------0---------------------------------------------------------------|
E|--2---0-4-----------------------------------------------------------------|


Fig1

Fig2
A D
Saat berpegangan akan lebih kuat kau berdiri.
Walau hanya satu kaki.
Saat berbagi menjadi hal yang sangat dinanti.

                             Fig3
D    E         D       E
Aku, kamu, dan teman-temanmu.

Fig4
A D
Hari ini kita bertemu, mungkin besok kau jadi temanku.
Sekadar pertemuan tapi bukan.
Itu yang kuharap.

A D
Senyuman adalah letusan.
Kayuhan menjadi penentu.

D                       E
Jalan hidup di hitamnya dunia.
D                      E       
Dan pertemuan ini jadi inspirasi 
D             E    D
Antara ku dan masa depanmu.

            Fig5
E                   D
Apa yang kudapatkan tak seberapa.
E                   D
Maka yang kuberikan memang hanya sederhana.
E                   D
Dan semoga saja kau tak akan lupa 
              Fig6
E             D  E
Tentang kita.

Fig7
A D A D  F G (Fig8) A

E                   D
Apa yang kudapatkan tak seberapa.
E                   D
Maka yang kuberikan memang hanya sederhana.
E                   D
Dan semoga saja kau tak akan lupa 
E             F
Tentang kita. Kita...


Related Posts



1 comments:

Muhammad Ilham said...

gan bisa request tab nya U9 rasa percaya nggak?

Post a Comment