BloodyDie - Serenade (Chord & Guitar Tab)

Song title   : Serenade
Artist       : BloodyDie
Tabbed by    : yoos (yoosyoes.blogspot.com)


Fig1
Dm C A# C

Fig2
Dm
a simple kiss to end this lies and 
C                          A#
let you go, spill your selfless
     C
hope this will never end

Dm                           C
remember the time when we're spent our time
                 A#
holding tight on a fault lines
   C
disguise a mistaking

Fig1
Dm C A# C


        Dm        C
i won't let go, until you know
          A#
that i'am trying
            C
so long i'm searching for you

Dm
i know this isn't much
    C
but i could be better
          A#
to find a way to be stronger
   C
to get closer on you


Fig3
Dm

Dm C A# C

Fig4
A# C Dm F

A#                        C
if theres no existing for now and then
          Dm             F
here i'am expecting, and stand this pain
A#                          C
if theres no time for me to loner here
           Dm    F
i'll be waiting

Dm

Dm
you could see into my eyes
but never fill my emptiness
you set me dance with disease


        Dm        C
i won't let go, until you know
          A#
that i'am trying
            C
so long i'm searching for you

Dm
i know this isn't much
    C
but i could be better
          A#
to find a way to be stronger
   C
to get closer on you

Dm


Fig1
e|--------8-------8-------8-------8---------8-------8-------8-------8--|
B|----6-------6-------6-------6---------6-------6-------6-------6------|
G|--7---7-------7-------7-------7-----5---5-------5-------5-------5----|
D|---------------------------------------------------------------------|
A|---------------------------------------------------------------------|
E|---------------------------------------------------------------------|

e|--------8-------8-------8-------8---------8-------8-------8-------8--|
B|----6-------6-------6-------6---------6-------6-------6-------6------|
G|------------------------------------5---5-------5-------5-------5----|
D|--8---8-------8-------8-------8--------------------------------------|
A|---------------------------------------------------------------------|
E|---------------------------------------------------------------------|

Fig2
e|--------8-------8-------8-------8---------8-------8-------8-------8--|
B|----6-------6-------6-------6---------8-------8-------8-------8------|
G|--7---7-------7-------7-------7-----5---5-------5-------5-------5----|
D|---------------------------------------------------------------------|
A|---------------------------------------------------------------------|
E|---------------------------------------------------------------------|

e|--------5-------5-------5-------5---------8-------6-------7----------|
B|----6-------6-------6-------6---------8-------8-------8-------8---6--|
G|------------------------------------5---5-------5-------5-------5----|
D|--8---8-------8-------8-------8--------------------------------------|
A|---------------------------------------------------------------------|
E|---------------------------------------------------------------------|

Fig3
e|--------8-------8-------8-----------------8-----------------(7)------|
B|----6-------6-------6-------6---6-----6-------6---6---------(7)------|
G|--7---7-------7-------7-------7-----7---7-------7-----(7)------------|
D|---------------------------------------------------------------------|
A|---------------------------------------------------------------------|
E|---------------------------------------------------------------------|

Fig4
e|---------------------------------------------------------------------|
B|---------------------------------------------------------------------|
G|--3-3-3-3-3-3-3-3-3-3-3-3-3-3-3-3-5-5-5-5-5-5-5-5-5-5-5-5-5-5-5-5----|
D|---------------------------------------------------------------------|
A|--1-1-1-1-1-1-1-1-1-1-1-1-1-1-1-1-3-3-3-3-3-3-3-3-3-3-3-3-3-3-3-3----|
E|---------------------------------------------------------------------|

e|---------------------------------------------------------------------|
B|---------------------------------------------------------------------|
G|--7-7-7-7-7-7-7-7-7-7-7-7-7-7-7-7-10-10-10-10-10-10-10-10-10-10-10---|
D|---------------------------------------------------------------------|
A|--5-5-5-5-5-5-5-5-5-5-5-5-5-5-5-5-8--8--8--8--8--8--8--8--8--8--8----|
E|---------------------------------------------------------------------|


Related Posts



1 comments:

Joe satrinichi II said...

Om, Q request tab'a JAMBRUD dunkz yg "Ingin Kembali"

Post a Comment