Rocket Rockers - Ingin Hilang Ingatan (Chord & Tab)

Song title      : Ingin Hilang Ingatan
Artist          : Rocket Rockers
Tabbed by       : yoos (yoosyoes.blogspot.com)


*Note : Guitar Tune Down 1/2 Step

Fig1
e|--3------3------3-3------3------3-3------3--------3-3------3-------|
B|--3----3---3-----------3---3-----------3---3----3--------3---3-----|
G|--0--0--------0------0--------0------0--------0--------0-----------|
D|--0---------------0---------------------------------0--------------|
A|--2--------3----------------------2--------3-----------------------|
E|---------------------------3---------------------------------3-----|

Fig2
e|--7--------8--------5--7---7--7--------8--------5------3-----------|
B|----7--------8--7--------8------7--------8----7------3-------------|
G|------7--9--------7---------------7--9------7------4---------------|
D|-------------------------------------------------------------------|
A|-------------------------------------------------------------------|
E|-------------------------------------------------------------------|

Fig3
e|------------------------------------------------------------------|
B|------------------------------------------------------------------|
G|------------------------------------------------------------------|
D|--7h9p7---------7-9------7h9p7---------7-9------------------------|
A|--------10-7-10----------------10-7-10----------7---7-7------9-9--|
E|--------------------10---------------------10-------------10------|

e|------------------------------------------------------------------|
B|------------------------------------------------------------------|
G|---------------------------------------------7--------------------|
D|--7h9p7---------7-9------7h9p7---------7-9------------------------|
A|--------10-7-10----------------10-7-10----------------------------|
E|--------------------10--------------------------------------------|

Fig4
e|--------------------------------------------------------------------------------------------|
B|--------------------------------------------------------------------------------------------|
G|------------------7---------7h9p7------------------------------------7----------------------|
D|--7h9p7----7-9-10----10--9--------9-7----7-9--7------7h9p7----7-9-10----10--9--7------------|
A|--------10----------------------------10---------10--------10---------------------10-9--10--|
E|--------------------------------------------------------------------------------------------|

e|-------------------------------------------------------------------------10--------|
B|--10-------------------------10---------------------------12--10-12-13---10--------|
G|-----12-------------------------12-----11-12-12/14-12-12-----------------11--------|
D|------------9-10-10/12-10-9---------12---------------------------------------------|
A|---------10------------------------------------------------------------------------|
E|-----------------------------------------------------------------------------------|

e|-------------------------------7h8p9------7-8-10----|
B|--7h8p7-------7-7h8p7---7-8-10-------8-10-----------|
G|--------9-7-9---------9-----------------------------|
D|----------------------------------------------------|
A|----------------------------------------------------|
E|----------------------------------------------------|



CHORD

Fig1
Bm C D G
Bm C D G

Fig2
      Bm        C    D      G
Menghilanglah dari kehidupanku….
 Bm        C       D             G
Enyahlah dari hati yang telah hancur….
    Bm      C          D       G
Kehadiran sosokmu kian menyiksaku…
  Bm      C       D       G
Biarkan disini ku menyendiri

Fig1
Bm C D G
Bm C D G

Fig2
   Bm       C       D   G
Pergilah bersamanya disana…
  Bm       C        D     G
Dengan dia yang ada segalanya…
     Bm         C     D   G
Bersenang-senanglah sepuasnya…
  Bm      C       D       Em  C
Biarkan disini ku menyendiri

Fig1
   Bm       C         D     G
Terlintas keinginan untuk dapat
  Bm       C              D      G
hilang ingatan agar semua terlupakan….
       Bm      C         D      G
Dan ku berlari sekencang-kencangnya
    Bm    C          D          Em   C
Tuk melupakanmu yang telah berpaling

Em C D

Fig3
    G        C                    
Disini, kembali,
      Am                  C
kau hadirkan ingatan yang seharusnya 
     Em        D               C
ku lupakan…dan ku hancurkan adanya...

Fig3
    G        C                    
Disini, kembali,
      Am                  C
kau hadirkan ingatan yang seharusnya 
     Em        D               C
ku lupakan…dan ku hancurkan adanya...

Fig1
Bm C   D   G
Letih, disini
   Bm      C    D   G
Ku ingin hilang ingatan

Bm C   D   G
Letih, disini
   Bm      C    D   G
Ku ingin hilang ingatan


Fig4
Bm C D Em
Bm C D Em
Bm C D Em
Bm C D

Fig3
    G        C                    
Disini, kembali,
      Am                  C
kau hadirkan ingatan yang seharusnya 
     Em        D               C
ku lupakan…dan ku hancurkan adanya...

Fig3
    G        C                    
Disini, kembali,
      Am                  C
kau hadirkan ingatan yang seharusnya 
     Em        D               C
ku lupakan…dan ku hancurkan adanya...

Fig1
   Bm       C       D   G
Pergilah bersamanya disana…
  Bm       C        D     Em
Dengan dia yang ada segalanya…



Related Posts



1 comments:

Anonymous said...

Maksudnya 7h8p7 di finger style gmna sih? Gangerti.

Post a Comment