Captain Jack - Munafik (Chord)

Song title      : Munafik
Artist          : Captain Jack
yoos (yoosyoes.blogspot.com)

C#m E A F#m
C#m E A F#m

       C#m      E    A         F#m
Kalian baik padaku saat kalian butuh sesuatu dariku
C#m      E        A             F#m
Baik padaku hanya saat aku tahu rahasia burukmu
   C#m        E           F#m        A         B
Berpaling dariku saat aku jatuh saat aku butuh orang lain
C#m          E           F#m           A     B
Temankah kalian musuhkah kalian ku tak mengerti

A
Aku memang pecundang
Tapi kalian semua……..

C#m E A F#m
Munafik…
C#m E A F#m
Munafik…
C#m E A F#m
Munafik…
C#m E A F#m
Munafik…

C#m                 E            A               F#m
Bicara buruk tentangku dibelakangku dan semuapun mentertawaiku
C#m        E    A               F#m
Menghianatiku saat aku mulai percaya padamu
C#m        E                F#m              A         B
Merendahkanku sedikit menghina tentang semua apa yang kulakukan
C#m          E           F#m           A     B
Temankah kalian musuhkah kalian ku tak perduli

A
Aku memang pecundang
Tapi kalian semua……..

C#m E A F#m
Munafik…
C#m E A F#m
Munafik…
C#m E A F#m
Munafik…
C#m E A F#m
Munafik…

C#m F#m A    8X

C#m E A F#m  4x

C#m E A F#m
Munafik…
C#m E A F#m
Munafik…
C#m E A F#m
Munafik…
C#m E A F#m
Munafik…

C#m E F#m A B
Munafik…
C#m E F#m A B
Munafik…
C#m E F#m A B
Munafik…
C#m E F#m A F#m
Munafik…

C#m E A F#m  4x



Bonus

BasTab @Aku memang pecundang
G|------------------------------------|
D|------/7-7h9---7-------/7-7h9---4---|
A|------------------------------------|
E|--5----------------5----------------|

BasTab @Kalian baik padaku....
G|--------------------------------------------------------------------------------------------------|
D|----------6--6--6-6-4h6---------6--6--6-6--6-6---------6--6--6-6--6-6--------------------6-6-6----|
A|--4--4--4---------------7--7--7----------------------------------------------------------------4--|
E|-----------------------------------------------5--5--5----------------5--5--5-2--2--2-2-----------|





Related Posts



11 comments:

Angga said...

tmbahi tab Vriasi Bass nya dong Mas Bro yg CJ-Munafik, please.??

Yoos said...

udah ditambahin....
cukup kan bro???

Angga said...

waah sbnarnya krang bro..
yg variasi bass wktu ..!!

@:Kalian baik padaku saat kalian butuh sesuatu dariku,.,.

itu yg pling pnting Bro ??

Yoos said...

Ouw.....

Angga said...

sip Bro ,.
thx bgt ya ???

Rendy said...

Bro tlong bri vriasi pas interlude:C#m E A F#m 4x kan da 2 gtar vriasinya !!

Yoos said...

@rendy
Sorry ga bisa bantu lagi, yg ini udah ada 2 orang yg req, pertama yoos ga buatin, trus di req lg ma Angga, yoos buatin chord aja, bukan tab (kecuali bass itu juga di req tambahan). Soalnya emang yoos ga bisa denger melodinya, cuma 2 bar doang pas di akhir2... selebihnya tenggelam sama effect distorsinya yg berlebihan

Rendy said...

ya tmbahin dkit bang ,.
wktu cma suara gtar ma Bass doank tu lo,.,drum nya brhnti,.,.pas tngah'',.,.

Aa,.,.aa,.aa,.,.
C#m E A F#m 4x
pas itu tmbahin ya bang,.,.

Yoos said...

yg kedengeran cuma ini

e|------11-----9-----9-----9-----11-----9-----9-----9------------------------|
B|--9-9----9-9---9-9---9-9---9-9----9-9---9-9---9-9--------------------------|
G|---------------------------------------------------------------------------|
D|---------------------------------------------------------------------------|
A|---------------------------------------------------------------------------|
E|---------------------------------------------------------------------------|

Rendy said...

,.o ya sip Bro,.
tu pas suara drum'y brhnti kan,.??

Yoos said...

yupyup....

Post a Comment