Captain Jack - Dari Anakmu (Chord & Tab)

Song title    : Dari Anakmu
Artist        : Captain Jack
Tabbed by     : yoos (yoosyoes.blogspot.com)


FigK1
e|----------------------------------------------------|
B|--------7-----------10----------7-----------10--12--|
G|--6-----------9------------6----------9-------------|
D|----------------------------------------------------|
A|----------------------------------------------------|
E|----------------------------------------------------|

FigK2
e|-----4--------------4----------------7--|
B|-----5------10------5-------9---10------|
G|--6---------9----6--------9---9----9----|
D|---------7--------------7---------------|
A|----------------------------------------|
E|----------------------------------------|

Fig1
e|-------------------------------------------------------|
B|-------------------------------------------------------|
G|--6-6-x-x-x-x-11-11-x-x-x-x-9-9-x-x-x-x-11-11-x-x-x-x--|
D|-------------------------------------------------------|
A|--4-4-x-x-x-x-9--9--x-x-x-x-7-7-x-x-x-x-9--9--x-x-x-x--|
E|-------------------------------------------------------|

e|----------------------------------------------------|
B|----------------------------------------------------|
G|--6-6-x-x-x-x-11-11-x-x-x-x-9-9-x-x-x-x-9-9--11-11--|
D|----------------------------------------------------|
A|--4-4-x-x-x-x-9--9--x-x-x-x-7-7-x-x-x-x-7-7--9--9---|
E|----------------------------------------------------|

e|-------------------------------------------------------|
B|-------------------------------------------------------|
G|--6-6-x-x-x-x-11-11-x-x-x-x-9-9-x-x-x-x-11-11-x-x-x-x--|
D|-------------------------------------------------------|
A|--4-4-x-x-x-x-9--9--x-x-x-x-7-7-x-x-x-x-9--9--x-x-x-x--|
E|-------------------------------------------------------|

e|-----------------------------------------------------|
B|-----------------------------------------------------|
G|--6-6-x-x-x-x-11-11-x-x-x-x-9-9-x-x-x-x-9--11-13--8--|
D|-----------------------------------------------------|
A|--4-4-x-x-x-x-9--9--x-x-x-x-7-7-x-x-x-x-7--9--11--6--|
E|-----------------------------------------------------|

Fig2
e|----------------------------(7)------|
B|------5-----5-----4-----4-------(7)--|
G|-------------------------------------|
D|----6-----6-----6-----6--------------|
A|--4-----4-----4-----4----------------|
E|-------------------------------------|
    pm    pm.   pm.   pm.

e|-------------------------------------|
B|------5-----5-----4-----4---(7)------|
G|--------------------------------(7)--|
D|----6-----6-----6-----6--------------|
A|--4-----4-----4-----4----------------|
E|-------------------------------------|
    pm    pm.   pm.   pm.

Fig3
e|----------------------------------------------------------|
B|-----5--4-----------------------5--4----------------------|
G|--6--------4-----------------6--------4-------------------|
D|--------------4----7--6--7-6-------------4-----7--6--7-6--|
A|----------------------------------------------------------|
E|----------------------------------------------------------|

Fig4
e|---------------------------|
B|---------------------------|
G|-------------------9---11--|
D|--6-6---6-6-6-6------------|
A|--4-4---4-4-4-4----7---9---|
E|---------------------------|
    pm...........


CHORD

E5

Fig1/FigK1
C#5 F#5 E5 F#5   C#5 F#5 E5   E5 F#5
C#5 F#5 E5 F#5   C#5 F#5 E5   E5 F#5 C#5

FigK2

Fig2
C#5
Ke mana ayahku yang pernah ku kenal dahulu?
C#5
Di mana ibuku mengapa semua berubah?
C#5 F#5 E5 F#5           C#5 F#5 E5   E5 F#5
Cuma ada kebencian kini, mengapa ku dipaksa untuk memihak?
C#5 F#5 E5 F#5            C#5 F#5 E5   E5 F#5 G#5
Bukankah kita semua satu, tidakkah ada jalan yang lebih baik?


Fig3
C#5 E5    A5      F#5
Kami anak-anakmu, perhatikan kami
C#5 E5    A5      F#5
Kami tak cukup kuat untuk semua ini
C#5 E5    A5      F#5
Kami anak-anakmu dan tolonglah kami
C#5 E5    A5      F#5
Yang kami ingn hanya semuanya kembali

Fig4
C#5
Semuanya pergi saat ku butuh bersandar
C#5
Semua berteriak di saat yang ku butuh hanya damai
C#5 F#5 E5 F#5           C#5 F#5 E5   E5 F#5
Sekarang ku tak bisa bedakan, ini rumah ataukah ini neraka?
C#5 F#5 E5 F#5           C#5 F#5 E5   E5 F#5 G#5
Ku duduk di sini menangis, kututup telinga, mengapa masih terdengar?


Fig3
C#5 E5    A5      F#5
Kami anak-anakmu, perhatikan kami
C#5 E5    A5      F#5
Kami tak cukup kuat untuk semua ini
C#5 E5    A5      F#5
Kami anak-anakmu dan tolonglah kami
C#5 E5    A5      F#5
Yang kami ingn hanya semuanya kembali


C#m E A F#m   C#m E A F#m


C#m        E    A       F#m
Oh Ibu dan Ayah selamat malam
C#m        E    A       F#m
Selamat bertengkar, hingga kau puas
C#m        E    A       F#m
Oh Ibu dan Ayah selamat malam
C#m        E    A
Jangan hiraukan aku, kututup telingaku

Mengapa masih terdengar?

C#5 F#5 E5 F#5   C#5 F#5 E5   E5 F#5


Related Posts



2 comments:

Rio said...

Bro tlong CJ-Dari anakmu, ksih efek piano yg swktu mau msuk lgu !!

sblum : Ke mana ayahku yang pernah ku kenal dahulu?

Yoos said...

Dah ditambahin bro, check it out...

Post a Comment