Didi Kempot - Tanjung Mas Tinggal Janji (Tab & Chord)

Song       : Tanjung Mas Tinggal Janji
Artist : Didi Kempot
Tabbed by : yoos (yoosyoes.blogspot.com)


Fig 1
e|-------------------------------------------------2------------------|
B|-------------2--2---2-------------------2----2-5---5-2------5p2-----|
G|------2--2-4------4---4-2--------2-4--4---4------------4-2------2---|
D|--2-4---------------------4--2-4------------------------------------|
A|--------------------------------------------------------------------|
E|--------------------------------------------------------------------|

e|------------------------2-------------------------------------------|
B|--2------------2----2-5---2--------2--2------------2----------------|
G|----4-2-4--2-4---4-----------4-2-4------4-2-4--2-4--------4-2-------|
D|-----------------------------------------------------2--4-----------|
A|--------------------------------------------------------------------|
E|--------------------------------------------------------------------|

e|-----------------------------|
B|----------------------3-2----|
G|--------------------------2--|
D|---------2-2-2-2-2-2---------|
A|--2-4-5----------------------|
E|-----------------------------|


Fig2
e|------------------------2----------------------------------------------|
B|--2------------2----2-5---2--------2--2------------2-5--5-2-----5p2----|
G|----4-2-4--2-4---4-----------4-2-4------4-2-4--2-4----------4-2-----2--|
D|-----------------------------------------------------------------------|
A|-----------------------------------------------------------------------|
E|-----------------------------------------------------------------------|


Fig3
e|--------------------------------------2------------------|
B|------2-5--2-5--2---2-----------2-3-5----2---------------|
G|--2-4-------------4----4-2--2-4------------2-1--2-4-1-2--|
D|---------------------------------------------------------|
A|---------------------------------------------------------|
E|---------------------------------------------------------|

e|-----------------------------------------------------2--------|
B|-----------2--------------------------------2--5-5-5---2h3h5--|
G|--1/2--2-4---4-2-4--2-4--2-4/6--2-4-4/6-2-4-------------------|
D|--------------------------------------------------------------|
A|--------------------------------------------------------------|
E|--------------------------------------------------------------|

e|-------------------2------------------------------------------------|
B|--2--------2-5/7-2---5/7-2-------------------------5p2--------------|
G|----4-2-4------------------4-2-------------------------2------------|
D|--------------------------------------2-2-2-2-2-2-------------------|
A|--------------------------------2-3-5-------------------------------|
E|--------------------------------------------------------------------|


Fig4
e|----------------2---------------------------------------------------|
B|--2--------2-5----2---2--5/7-2--2----------2-5--5-2h5-2-------------|
G|----4-2-4-----------4-------------4-2-4--4--------------4-2---------|
D|--------------------------------------------------------------------|
A|--------------------------------------------------------------------|
E|--------------------------------------------------------------------|


Fig1
D F#m G D
Em Bm Em A D A

D F#m
bebasan koyo ngen teni
G A D
udane mongso ketigo
G A D F#m
najan mung sedelo ora dadi ngopo
Em E A
penting biso ngademke ati wou

D F#m
semono ugo rasane atiku
G A D
mung tansyah nunggu tekamu
G A D F#m
ra kroso setahun kowe ninggal aku
Em A D
kangen kangene atiku

Fig2
Em D Em A D

F#m Bm
aku sih kelingan naliko ing pelabuhan
G A D
kowe janji lungo ra ono sewulan
F#m Bm
nanging saiki, wis luwih ing janji
G A D
nyatane kowe ora bali bali

Em A D Bm
neng pelabuhan tanjung mas kene
Em A D
biyen aku ngeter ke kowe
Em A D Bm
neng pelabuhan semarang kene
Em A D
aku tansah ngenteni kowe

Fig3
D G Em A D
Em A D A D A

D F#m
semono ugo rasane atiku
G A D
mung tansyah nunggu tekamu
G A D F#m
ra kroso setahun kowe ninggal aku
Em A D
kangen kangene atiku

Fig4
Em D Em A D

F#m Bm
aku sih kelingan naliko ing pelabuhan
G A D
kowe janji lungo ra ono sewulan
F#m Bm
nanging saiki, wis luwih ing janji
G A D
nyatane kowe ora bali bali

Em A D Bm
neng pelabuhan tanjung mas kene
Em A D
biyen aku ngeter ke kowe
Em A D Bm
neng pelabuhan semarang kene
Em A D
aku tansah ngenteni kowe


Related Posts



0 comments:

Post a Comment